  0
SECTION
  2
HEADER
  9
$ACADVER
  1
AC1015
  9
$ACADMAINTVER
 70
     6
  9
$DWGCODEPAGE
  3
ANSI_1254
  9
$INSBASE
 10
0.0
 20
0.0
 30
0.0
  9
$EXTMIN
 10
0.0
 20
0.0
 30
0.0
  9
$EXTMAX
 10
279.4
 20
215.9
 30
0.0
  9
$LIMMIN
 10
0.0
 20
0.0
  9
$LIMMAX
 10
279.4
 20
215.9
  9
$ORTHOMODE
 70
     0
  9
$REGENMODE
 70
     1
  9
$FILLMODE
 70
     1
  9
$QTEXTMODE
 70
     0
  9
$MIRRTEXT
 70
     1
  9
$LTSCALE
 40
1.0
  9
$ATTMODE
 70
     1
  9
$TEXTSIZE
 40
3.5
  9
$TRACEWID
 40
1.0
  9
$TEXTSTYLE
  7
Standard
  9
$CLAYER
  8
0
  9
$CELTYPE
  6
ByLayer
  9
$CECOLOR
 62
   256
  9
$CELTSCALE
 40
1.0
  9
$DISPSILH
 70
     0
  9
$DIMSCALE
 40
1.0
  9
$DIMASZ
 40
3.5
  9
$DIMEXO
 40
1.0
  9
$DIMDLI
 40
3.75
  9
$DIMRND
 40
0.0
  9
$DIMDLE
 40
0.0
  9
$DIMEXE
 40
1.0
  9
$DIMTP
 40
0.0
  9
$DIMTM
 40
0.0
  9
$DIMTXT
 40
3.5
  9
$DIMCEN
 40
2.5
  9
$DIMTSZ
 40
0.0
  9
$DIMTOL
 70
     0
  9
$DIMLIM
 70
     0
  9
$DIMTIH
 70
     1
  9
$DIMTOH
 70
     1
  9
$DIMSE1
 70
     0
  9
$DIMSE2
 70
     0
  9
$DIMTAD
 70
     1
  9
$DIMZIN
 70
     0
  9
$DIMBLK
  1

  9
$DIMASO
 70
     1
  9
$DIMSHO
 70
     1
  9
$DIMPOST
  1

  9
$DIMAPOST
  1

  9
$DIMALT
 70
     0
  9
$DIMALTD
 70
     3
  9
$DIMALTF
 40
0.0393700787
  9
$DIMLFAC
 40
1.0
  9
$DIMTOFL
 70
     1
  9
$DIMTVP
 40
0.0
  9
$DIMTIX
 70
     0
  9
$DIMSOXD
 70
     0
  9
$DIMSAH
 70
     0
  9
$DIMBLK1
  1

  9
$DIMBLK2
  1

  9
$DIMSTYLE
  2
ISO-25
  9
$DIMCLRD
 70
     0
  9
$DIMCLRE
 70
     0
  9
$DIMCLRT
 70
     0
  9
$DIMTFAC
 40
1.0
  9
$DIMGAP
 40
1.524
  9
$DIMJUST
 70
     0
  9
$DIMSD1
 70
     0
  9
$DIMSD2
 70
     0
  9
$DIMTOLJ
 70
     0
  9
$DIMTZIN
 70
     0
  9
$DIMALTZ
 70
     0
  9
$DIMALTTZ
 70
     0
  9
$DIMUPT
 70
     0
  9
$DIMDEC
 70
     2
  9
$DIMTDEC
 70
     2
  9
$DIMALTU
 70
     2
  9
$DIMALTTD
 70
     3
  9
$DIMTXSTY
  7
Standard
  9
$DIMAUNIT
 70
     0
  9
$DIMADEC
 70
     2
  9
$DIMALTRND
 40
0.0
  9
$DIMAZIN
 70
     0
  9
$DIMDSEP
 70
    44
  9
$DIMATFIT
 70
     3
  9
$DIMFRAC
 70
     0
  9
$DIMLDRBLK
  1

  9
$DIMLUNIT
 70
     2
  9
$DIMLWD
 70
    -2
  9
$DIMLWE
 70
    -2
  9
$DIMTMOVE
 70
     0
  9
$LUNITS
 70
     2
  9
$LUPREC
 70
     2
  9
$SKETCHINC
 40
1.0
  9
$FILLETRAD
 40
10.0
  9
$AUNITS
 70
     0
  9
$AUPREC
 70
     2
  9
$MENU
  1
.
  9
$ELEVATION
 40
0.0
  9
$PELEVATION
 40
0.0
  9
$THICKNESS
 40
0.0
  9
$LIMCHECK
 70
     0
  9
$CHAMFERA
 40
0.0
  9
$CHAMFERB
 40
0.0
  9
$CHAMFERC
 40
0.0
  9
$CHAMFERD
 40
0.0
  9
$SKPOLY
 70
     0
  9
$TDCREATE
 40
2458985.705898252
  9
$TDUCREATE
 40
2458985.580898252
  9
$TDUPDATE
 40
2458985.70589853
  9
$TDUUPDATE
 40
2458985.58089853
  9
$TDINDWG
 40
0.0000000116
  9
$TDUSRTIMER
 40
0.0000000116
  9
$USRTIMER
 70
     1
  9
$ANGBASE
 50
0.0
  9
$ANGDIR
 70
     0
  9
$PDMODE
 70
     0
  9
$PDSIZE
 40
-1.0
  9
$PLINEWID
 40
0.0
  9
$SPLFRAME
 70
     0
  9
$SPLINETYPE
 70
     6
  9
$SPLINESEGS
 70
     8
  9
$HANDSEED
  5
F1
  9
$SURFTAB1
 70
     6
  9
$SURFTAB2
 70
     6
  9
$SURFTYPE
 70
     6
  9
$SURFU
 70
     6
  9
$SURFV
 70
     6
  9
$UCSBASE
  2

  9
$UCSNAME
  2

  9
$UCSORG
 10
0.0
 20
0.0
 30
0.0
  9
$UCSXDIR
 10
1.0
 20
0.0
 30
0.0
  9
$UCSYDIR
 10
0.0
 20
1.0
 30
0.0
  9
$UCSORTHOREF
  2

  9
$UCSORTHOVIEW
 70
     0
  9
$UCSORGTOP
 10
0.0
 20
0.0
 30
0.0
  9
$UCSORGBOTTOM
 10
0.0
 20
0.0
 30
0.0
  9
$UCSORGLEFT
 10
0.0
 20
0.0
 30
0.0
  9
$UCSORGRIGHT
 10
0.0
 20
0.0
 30
0.0
  9
$UCSORGFRONT
 10
0.0
 20
0.0
 30
0.0
  9
$UCSORGBACK
 10
0.0
 20
0.0
 30
0.0
  9
$PUCSBASE
  2

  9
$PUCSNAME
  2

  9
$PUCSORG
 10
0.0
 20
0.0
 30
0.0
  9
$PUCSXDIR
 10
1.0
 20
0.0
 30
0.0
  9
$PUCSYDIR
 10
0.0
 20
1.0
 30
0.0
  9
$PUCSORTHOREF
  2

  9
$PUCSORTHOVIEW
 70
     0
  9
$PUCSORGTOP
 10
0.0
 20
0.0
 30
0.0
  9
$PUCSORGBOTTOM
 10
0.0
 20
0.0
 30
0.0
  9
$PUCSORGLEFT
 10
0.0
 20
0.0
 30
0.0
  9
$PUCSORGRIGHT
 10
0.0
 20
0.0
 30
0.0
  9
$PUCSORGFRONT
 10
0.0
 20
0.0
 30
0.0
  9
$PUCSORGBACK
 10
0.0
 20
0.0
 30
0.0
  9
$USERI1
 70
     0
  9
$USERI2
 70
     0
  9
$USERI3
 70
     0
  9
$USERI4
 70
     0
  9
$USERI5
 70
     0
  9
$USERR1
 40
0.0
  9
$USERR2
 40
0.0
  9
$USERR3
 40
0.0
  9
$USERR4
 40
0.0
  9
$USERR5
 40
0.0
  9
$WORLDVIEW
 70
     1
  9
$SHADEDGE
 70
     3
  9
$SHADEDIF
 70
    70
  9
$TILEMODE
 70
     1
  9
$MAXACTVP
 70
    64
  9
$PINSBASE
 10
0.0
 20
0.0
 30
0.0
  9
$PLIMCHECK
 70
     0
  9
$PEXTMIN
 10
1.0000000000E+20
 20
1.0000000000E+20
 30
1.0000000000E+20
  9
$PEXTMAX
 10
-1.0000000000E+20
 20
-1.0000000000E+20
 30
-1.0000000000E+20
  9
$PLIMMIN
 10
0.0
 20
0.0
  9
$PLIMMAX
 10
420.0
 20
297.0
  9
$UNITMODE
 70
     0
  9
$VISRETAIN
 70
     1
  9
$PLINEGEN
 70
     0
  9
$PSLTSCALE
 70
     1
  9
$TREEDEPTH
 70
  3020
  9
$CMLSTYLE
  2
Standard
  9
$CMLJUST
 70
     0
  9
$CMLSCALE
 40
20.0
  9
$PROXYGRAPHICS
 70
     1
  9
$MEASUREMENT
 70
     1
  9
$CELWEIGHT
370
    -1
  9
$ENDCAPS
280
     0
  9
$JOINSTYLE
280
     0
  9
$LWDISPLAY
290
     1
  9
$INSUNITS
 70
     4
  9
$HYPERLINKBASE
  1

  9
$STYLESHEET
  1

  9
$XEDIT
290
     1
  9
$CEPSNTYPE
380
     0
  9
$PSTYLEMODE
290
     1
  9
$FINGERPRINTGUID
  2
{89d87a62-a042-4ec3-9441-c67d57f0fbd1}
  9
$VERSIONGUID
  2
{FAEB1C32-E019-11D5-929B-00C0DF256EC4}
  9
$EXTNAMES
290
     1
  9
$PSVPSCALE
 40
0.0
  9
$OLESTARTUP
290
     0
  0
ENDSEC
  0
SECTION
  2
CLASSES
  0
CLASS
  1
ACDBDICTIONARYWDFLT
  2
AcDbDictionaryWithDefault
  3
ObjectDBX Classes
 90
        0
280
     0
281
     0
  0
CLASS
  1
VISUALSTYLE
  2
AcDbVisualStyle
  3
ObjectDBX Classes
 90
     4095
280
     0
281
     0
  0
CLASS
  1
MATERIAL
  2
AcDbMaterial
  3
ObjectDBX Classes
 90
     1153
280
     0
281
     0
  0
CLASS
  1
SCALE
  2
AcDbScale
  3
ObjectDBX Classes
 90
     1153
280
     0
281
     0
  0
CLASS
  1
TABLESTYLE
  2
AcDbTableStyle
  3
ObjectDBX Classes
 90
     4095
280
     0
281
     0
  0
CLASS
  1
MLEADERSTYLE
  2
AcDbMLeaderStyle
  3
ACDB_MLEADERSTYLE_CLASS
 90
     4095
280
     0
281
     0
  0
CLASS
  1
SUN
  2
AcDbSun
  3
SCENEOE
 90
     1153
280
     0
281
     0
  0
CLASS
  1
ACDBPLACEHOLDER
  2
AcDbPlaceHolder
  3
ObjectDBX Classes
 90
        0
280
     0
281
     0
  0
CLASS
  1
LAYOUT
  2
AcDbLayout
  3
ObjectDBX Classes
 90
        0
280
     0
281
     0
  0
ENDSEC
  0
SECTION
  2
TABLES
  0
TABLE
  2
VPORT
  5
8
330
0
100
AcDbSymbolTable
 70
     1
  0
VPORT
  5
29
330
8
100
AcDbSymbolTableRecord
100
AcDbViewportTableRecord
  2
*Active
 70
     0
 10
0.0
 20
0.0
 11
1.0
 21
1.0
 12
139.7
 22
107.95
 13
0.0
 23
0.0
 14
10.0
 24
10.0
 15
10.0
 25
10.0
 16
0.0
 26
0.0
 36
1.0
 17
0.0
 27
0.0
 37
0.0
 40
215.9
 41
1.2941176471
 42
50.0
 43
0.0
 44
0.0
 50
0.0
 51
0.0
 71
     0
 72
  2000
 73
     1
 74
     3
 75
     0
 76
     0
 77
     0
 78
     0
281
     0
 65
     1
110
0.0
120
0.0
130
0.0
111
1.0
121
0.0
131
0.0
112
0.0
122
1.0
132
0.0
 79
     0
146
0.0
  0
ENDTAB
  0
TABLE
  2
LTYPE
  5
5
330
0
100
AcDbSymbolTable
 70
     6
  0
LTYPE
  5
14
330
5
100
AcDbSymbolTableRecord
100
AcDbLinetypeTableRecord
  2
ByBlock
 70
     0
  3

 72
    65
 73
     0
 40
0.0
  0
LTYPE
  5
15
330
5
100
AcDbSymbolTableRecord
100
AcDbLinetypeTableRecord
  2
ByLayer
 70
     0
  3

 72
    65
 73
     0
 40
0.0
  0
LTYPE
  5
16
330
5
100
AcDbSymbolTableRecord
100
AcDbLinetypeTableRecord
  2
Continuous
 70
     0
  3
Solid line
 72
    65
 73
     0
 40
0.0
  0
LTYPE
  5
6E
330
5
100
AcDbSymbolTableRecord
100
AcDbLinetypeTableRecord
  2
HIDDEN
 70
     0
  3
Hidden __ __ __ __ __ __ __ __ __ __ __ __ __ __
 72
    65
 73
     2
 40
1.905
 49
1.27
 74
     0
 49
-0.635
 74
     0
  0
LTYPE
  5
6F
330
5
100
AcDbSymbolTableRecord
100
AcDbLinetypeTableRecord
  2
PHANTOM
 70
     0
  3
Phantom ______  __  __  ______  __  __  ______
 72
    65
 73
     6
 40
12.7
 49
6.35
 74
     0
 49
-1.27
 74
     0
 49
1.27
 74
     0
 49
-1.27
 74
     0
 49
1.27
 74
     0
 49
-1.27
 74
     0
  0
LTYPE
  5
70
330
5
100
AcDbSymbolTableRecord
100
AcDbLinetypeTableRecord
  2
CENTER
 70
     0
  3
Center ____ _ ____ _ ____ _ ____ _ ____ _ ____
 72
    65
 73
     4
 40
10.16
 49
6.35
 74
     0
 49
-1.27
 74
     0
 49
1.27
 74
     0
 49
-1.27
 74
     0
  0
LTYPE
  5
71
330
5
100
AcDbSymbolTableRecord
100
AcDbLinetypeTableRecord
  2
CENTERX2
 70
     0
  3
Center (2x) ________  __  ________  __  _____
 72
    65
 73
     4
 40
20.32
 49
12.7
 74
     0
 49
-2.54
 74
     0
 49
2.54
 74
     0
 49
-2.54
 74
     0
  0
LTYPE
  5
72
330
5
100
AcDbSymbolTableRecord
100
AcDbLinetypeTableRecord
  2
DOT2
 70
     0
  3
Dot (.5x) ........................................
 72
    65
 73
     2
 40
0.635
 49
0.0
 74
     0
 49
-0.635
 74
     0
  0
ENDTAB
  0
TABLE
  2
LAYER
  5
2
330
0
100
AcDbSymbolTable
 70
    17
  0
LAYER
  5
10
330
2
100
AcDbSymbolTableRecord
100
AcDbLayerTableRecord
  2
0
 70
     0
 62
     7
  6
Continuous
370
    -3
390
F
  0
LAYER
  5
73
330
2
100
AcDbSymbolTableRecord
100
AcDbLayerTableRecord
  2
FORMAT
 70
     0
 62
     7
  6
Continuous
370
    -3
390
F
  0
LAYER
  5
74
330
2
100
AcDbSymbolTableRecord
100
AcDbLayerTableRecord
  2
YARDIMCI_GEOMETRI
 70
     0
 62
    -6
  6
Continuous
290
     0
370
    -3
390
F
  0
LAYER
  5
75
330
2
100
AcDbSymbolTableRecord
100
AcDbLayerTableRecord
  2
SAYFA_CERCEVESI
 70
     0
 62
     7
  6
Continuous
370
    25
390
F
  0
LAYER
  5
76
330
2
100
AcDbSymbolTableRecord
100
AcDbLayerTableRecord
  2
ANTET
 70
     0
 62
     7
  6
Continuous
370
    -3
390
F
  0
LAYER
  5
77
330
2
100
AcDbSymbolTableRecord
100
AcDbLayerTableRecord
  2
OLCU
 70
     0
 62
   150
  6
Continuous
370
    -3
390
F
  0
LAYER
  5
78
330
2
100
AcDbSymbolTableRecord
100
AcDbLayerTableRecord
  2
METIN
 70
     0
 62
    96
  6
Continuous
370
    -3
390
F
  0
LAYER
  5
79
330
2
100
AcDbSymbolTableRecord
100
AcDbLayerTableRecord
  2
BALON
 70
     0
 62
     5
  6
Continuous
370
    -3
390
F
  0
LAYER
  5
7A
330
2
100
AcDbSymbolTableRecord
100
AcDbLayerTableRecord
  2
VURGU
 70
     0
 62
     7
  6
Continuous
370
    -3
390
F
  0
LAYER
  5
7B
330
2
100
AcDbSymbolTableRecord
100
AcDbLayerTableRecord
  2
SILIK
 70
     0
 62
     7
  6
Continuous
370
    -3
390
F
  0
LAYER
  5
7C
330
2
100
AcDbSymbolTableRecord
100
AcDbLayerTableRecord
  2
MODEL
 70
     0
 62
     7
  6
Continuous
370
    -3
390
F
  0
LAYER
  5
7D
330
2
100
AcDbSymbolTableRecord
100
AcDbLayerTableRecord
  2
DETAYLANDıRMA
 70
     0
 62
   190
  6
Continuous
370
    -3
390
F
  0
LAYER
  5
7E
330
2
100
AcDbSymbolTableRecord
100
AcDbLayerTableRecord
  2
TOLERANS
 70
     0
 62
   230
  6
Continuous
370
    -3
390
F
  0
LAYER
  5
7F
330
2
100
AcDbSymbolTableRecord
100
AcDbLayerTableRecord
  2
MERKEZ_CIZGILERI
 70
     0
 62
    30
  6
Continuous
370
    -3
390
F
  0
LAYER
  5
80
330
2
100
AcDbSymbolTableRecord
100
AcDbLayerTableRecord
  2
KESIT-DETAY_CIZGILERI
 70
     0
 62
     7
  6
Continuous
370
    -3
390
F
  0
LAYER
  5
81
330
2
100
AcDbSymbolTableRecord
100
AcDbLayerTableRecord
  2
\U+041E\U+0421\U+0415\U+0412\U+042B\U+0415
 70
     0
 62
     7
  6
Continuous
370
    -3
390
F
  0
LAYER
  5
82
330
2
100
AcDbSymbolTableRecord
100
AcDbLayerTableRecord
  2
\U+0412\U+041E\U+0414\U+042F\U+041D\U+042B\U+0415_\U+0417\U+041D\U+0410\U+041A\U+0418
 70
     0
 62
    11
  6
Continuous
370
    -3
390
F
  0
ENDTAB
  0
TABLE
  2
STYLE
  5
3
330
0
100
AcDbSymbolTable
 70
     1
  0
STYLE
  5
11
330
3
100
AcDbSymbolTableRecord
100
AcDbTextStyleTableRecord
  2
Standard
 70
     0
 40
0.0
 41
1.0
 50
0.0
 71
     0
 42
3.5
  3
txt
  4

  0
ENDTAB
  0
TABLE
  2
VIEW
  5
6
330
0
100
AcDbSymbolTable
 70
     0
  0
ENDTAB
  0
TABLE
  2
UCS
  5
7
330
0
100
AcDbSymbolTable
 70
     0
  0
ENDTAB
  0
TABLE
  2
APPID
  5
9
330
0
100
AcDbSymbolTable
 70
     1
  0
APPID
  5
12
330
9
100
AcDbSymbolTableRecord
100
AcDbRegAppTableRecord
  2
ACAD
 70
     0
  0
ENDTAB
  0
TABLE
  2
DIMSTYLE
  5
A
330
0
100
AcDbSymbolTable
 70
     1
100
AcDbDimStyleTable
  0
DIMSTYLE
105
27
330
A
100
AcDbSymbolTableRecord
100
AcDbDimStyleTableRecord
  2
ISO-25
 70
     0
 41
2.5
 42
0.625
 43
3.75
 44
1.25
 73
     0
 74
     0
 77
     1
 78
     8
140
2.5
141
2.5
143
0.0393700787
147
0.625
171
     3
172
     1
178
     0
271
     2
272
     2
274
     3
278
    44
283
     0
284
     8
340
11
  0
ENDTAB
  0
TABLE
  2
BLOCK_RECORD
  5
1
330
0
100
AcDbSymbolTable
 70
     2
  0
BLOCK_RECORD
  5
1F
330
1
100
AcDbSymbolTableRecord
100
AcDbBlockTableRecord
  2
*Model_Space
340
22
  0
BLOCK_RECORD
  5
1B
330
1
100
AcDbSymbolTableRecord
100
AcDbBlockTableRecord
  2
*Paper_Space
340
1E
  0
BLOCK_RECORD
  5
23
330
1
100
AcDbSymbolTableRecord
100
AcDbBlockTableRecord
  2
*Paper_Space0
340
26
  0
BLOCK_RECORD
  5
88
330
1
100
AcDbSymbolTableRecord
100
AcDbBlockTableRecord
  2
SW_CENTERMARKSYMBOL_0
340
0
102
{BLKREFS
331
93
102
}
  0
ENDTAB
  0
ENDSEC
  0
SECTION
  2
BLOCKS
  0
BLOCK
  5
20
330
1F
100
AcDbEntity
  8
0
100
AcDbBlockBegin
  2
*Model_Space
 70
     0
 10
0.0
 20
0.0
 30
0.0
  3
*Model_Space
  1

  0
ENDBLK
  5
21
330
1F
100
AcDbEntity
  8
0
100
AcDbBlockEnd
  0
BLOCK
  5
1C
330
1B
100
AcDbEntity
 67
     1
  8
0
100
AcDbBlockBegin
  2
*Paper_Space
 70
     0
 10
0.0
 20
0.0
 30
0.0
  3
*Paper_Space
  1

  0
ENDBLK
  5
1D
330
1B
100
AcDbEntity
 67
     1
  8
0
100
AcDbBlockEnd
  0
BLOCK
  5
24
330
23
100
AcDbEntity
  8
0
100
AcDbBlockBegin
  2
*Paper_Space0
 70
     0
 10
0.0
 20
0.0
 30
0.0
  3
*Paper_Space0
  1

  0
ENDBLK
  5
25
330
23
100
AcDbEntity
  8
0
100
AcDbBlockEnd
  0
BLOCK
  5
89
330
88
100
AcDbEntity
  8
0
100
AcDbBlockBegin
  2
SW_CENTERMARKSYMBOL_0
 70
     0
 10
0.0
 20
0.0
 30
0.0
  3
SW_CENTERMARKSYMBOL_0
  1

  0
LINE
  5
8B
330
88
100
AcDbEntity
  8
FORMAT
 62
     0
100
AcDbLine
 10
0.0
 20
0.0
 30
0.0
 11
0.0
 21
2.5
 31
0.0
  0
LINE
  5
8C
330
88
100
AcDbEntity
  8
FORMAT
 62
     0
100
AcDbLine
 10
0.0
 20
0.0
 30
0.0
 11
-2.5
 21
0.0
 31
0.0
  0
LINE
  5
8D
330
88
100
AcDbEntity
  8
FORMAT
 62
     0
100
AcDbLine
 10
0.0
 20
0.0
 30
0.0
 11
0.0
 21
-2.5
 31
0.0
  0
LINE
  5
8E
330
88
100
AcDbEntity
  8
FORMAT
 62
     0
100
AcDbLine
 10
0.0
 20
0.0
 30
0.0
 11
2.5
 21
0.0
 31
0.0
  0
LINE
  5
8F
330
88
100
AcDbEntity
  8
FORMAT
 62
     0
100
AcDbLine
 10
0.0
 20
5.0
 30
0.0
 11
0.0
 21
102.5
 31
0.0
  0
LINE
  5
90
330
88
100
AcDbEntity
  8
FORMAT
 62
     0
100
AcDbLine
 10
-5.0
 20
0.0
 30
0.0
 11
-102.5
 21
0.0
 31
0.0
  0
LINE
  5
91
330
88
100
AcDbEntity
  8
FORMAT
 62
     0
100
AcDbLine
 10
0.0
 20
-5.0
 30
0.0
 11
0.0
 21
-102.5
 31
0.0
  0
LINE
  5
92
330
88
100
AcDbEntity
  8
FORMAT
 62
     0
100
AcDbLine
 10
5.0
 20
0.0
 30
0.0
 11
102.5
 21
0.0
 31
0.0
  0
ENDBLK
  5
8A
330
88
100
AcDbEntity
  8
0
100
AcDbBlockEnd
  0
ENDSEC
  0
SECTION
  2
ENTITIES
  0
CIRCLE
  5
83
330
1F
100
AcDbEntity
  8
0
  6
Continuous
 62
     7
370
    25
100
AcDbCircle
 10
136.4404173011
 20
116.0016280628
 30
0.0
 40
100.0
  0
CIRCLE
  5
84
330
1F
100
AcDbEntity
  8
0
  6
Continuous
 62
     7
370
    25
100
AcDbCircle
 10
136.4404173011
 20
116.0016280628
 30
0.0
 40
88.10000000000001
  0
CIRCLE
  5
85
330
1F
100
AcDbEntity
  8
0
  6
Continuous
 62
     7
370
    25
100
AcDbCircle
 10
136.4404173011
 20
116.0016280628
 30
0.0
 40
87.47078638060768
  0
CIRCLE
  5
86
330
1F
100
AcDbEntity
  8
0
  6
Continuous
 62
     7
370
    25
100
AcDbCircle
 10
136.4404173011
 20
116.0016280628
 30
0.0
 40
49.02921361939232
  0
CIRCLE
  5
87
330
1F
100
AcDbEntity
  8
0
  6
Continuous
 62
     7
370
    25
100
AcDbCircle
 10
136.4404173011
 20
116.0016280628
 30
0.0
 40
48.40000000000002
  0
INSERT
  5
93
330
1F
100
AcDbEntity
  8
FORMAT
 62
     7
100
AcDbBlockReference
  2
SW_CENTERMARKSYMBOL_0
 10
136.4404173011
 20
116.0016280628
 30
0.0
  0
ARC
  5
94
330
1F
100
AcDbEntity
  8
0
  6
Continuous
 62
     7
370
    25
100
AcDbCircle
 10
-202.2213300722
 20
214.0016280628
 30
0.0
 40
2.000000000000036
100
AcDbArc
 50
60.9453959009
 51
90.0
  0
ARC
  5
95
330
1F
100
AcDbEntity
  8
0
  6
Continuous
 62
     7
370
    25
100
AcDbCircle
 10
-202.2213300722
 20
18.0016280628
 30
0.0
 40
2.000000000000033
100
AcDbArc
 50
270.0
 51
299.0546040991
  0
LINE
  5
96
330
1F
100
AcDbEntity
  8
0
  6
Continuous
 62
     7
370
    25
100
AcDbLine
 10
-202.2213298115
 20
216.0016295529
 30
0.0
 11
-313.7030708823
 21
216.0016295529
 31
0.0
  0
LINE
  5
97
330
1F
100
AcDbEntity
  8
0
  6
Continuous
 62
     7
370
    25
100
AcDbLine
 10
-313.7030708823
 20
16.0016265727
 30
0.0
 11
-202.2213298115
 21
16.0016265727
 31
0.0
  0
LINE
  5
98
330
1F
100
AcDbEntity
  8
0
  6
Continuous
 62
     7
370
    25
100
AcDbLine
 10
-201.2500460479
 20
16.2533146358
 30
0.0
 11
-121.1561109159
 21
60.7499440229
 31
0.0
  0
LINE
  5
99
330
1F
100
AcDbEntity
  8
0
  6
Continuous
 62
     7
370
    25
100
AcDbLine
 10
-121.1561109159
 20
171.2533121026
 30
0.0
 11
-201.2500460479
 21
215.7499414897
 31
0.0
  0
ARC
  5
9A
330
1F
100
AcDbEntity
  8
0
  6
Continuous
 62
     7
370
    25
100
AcDbCircle
 10
-120.1848259594
 20
173.0016280628
 30
0.0
 40
2.000000000000029
100
AcDbArc
 50
240.9453959009
 51
270.0
  0
ARC
  5
9B
330
1F
100
AcDbEntity
  8
0
  6
Continuous
 62
     7
370
    25
100
AcDbCircle
 10
-120.1848259594
 20
59.0016280628
 30
0.0
 40
2.000000000000016
100
AcDbArc
 50
90.0
 51
119.0546040991
  0
LINE
  5
9C
330
1F
100
AcDbEntity
  8
0
  6
Continuous
 62
     7
370
    25
100
AcDbLine
 10
-38.703079823
 20
171.0016277647
 30
0.0
 11
-120.1848271522
 21
171.0016277647
 31
0.0
  0
LINE
  5
9D
330
1F
100
AcDbEntity
  8
0
  6
Continuous
 62
     7
370
    25
100
AcDbLine
 10
-120.1848271522
 20
61.0016283608
 30
0.0
 11
-38.703079823
 21
61.0016283608
 31
0.0
  0
LINE
  5
9E
330
1F
100
AcDbEntity
  8
0
  6
Continuous
 62
     7
370
    25
100
AcDbLine
 10
-313.7030708823
 20
216.0016295529
 30
0.0
 11
-313.7030708823
 21
16.0016265727
 31
0.0
  0
LINE
  5
9F
330
1F
100
AcDbEntity
  8
0
  6
Continuous
 62
     7
370
    25
100
AcDbLine
 10
-38.703079823
 20
171.0016277647
 30
0.0
 11
-38.703079823
 21
61.0016283608
 31
0.0
  0
LINE
  5
A0
330
1F
100
AcDbEntity
  8
0
  6
Continuous
 62
     1
370
    25
100
AcDbLine
 10
-201.2500460479
 20
215.7499414897
 30
0.0
 11
-201.2500460479
 21
16.2533146358
 31
0.0
  0
LINE
  5
A1
330
1F
100
AcDbEntity
  8
0
  6
Continuous
 62
     1
370
    25
100
AcDbLine
 10
-202.2213298115
 20
216.0016295529
 30
0.0
 11
-202.2213298115
 21
16.0016265727
 31
0.0
  0
LINE
  5
A2
330
1F
100
AcDbEntity
  8
0
  6
Continuous
 62
     1
370
    25
100
AcDbLine
 10
-121.1561109159
 20
171.2533121026
 30
0.0
 11
-121.1561109159
 21
60.7499440229
 31
0.0
  0
LINE
  5
A3
330
1F
100
AcDbEntity
  8
0
  6
Continuous
 62
     1
370
    25
100
AcDbLine
 10
-120.1848271522
 20
171.0016277647
 30
0.0
 11
-120.1848271522
 21
61.0016283608
 31
0.0
  0
ARC
  5
A4
330
1F
100
AcDbEntity
  8
0
  6
Continuous
 62
     7
370
    25
100
AcDbCircle
 10
234.4404173011
 20
416.1742568898
 30
0.0
 40
2.000000000000047
100
AcDbArc
 50
330.9453959009
 51
0.0
  0
ARC
  5
A5
330
1F
100
AcDbEntity
  8
0
  6
Continuous
 62
     7
370
    25
100
AcDbCircle
 10
38.4404173011
 20
416.1742568898
 30
0.0
 40
2.000000000000022
100
AcDbArc
 50
180.0
 51
209.0546040991
  0
LINE
  5
A6
330
1F
100
AcDbEntity
  8
0
  6
Continuous
 62
     7
370
    25
100
AcDbLine
 10
236.4404187912
 20
416.1742566292
 30
0.0
 11
236.4404187912
 21
527.6559977
 31
0.0
  0
LINE
  5
A7
330
1F
100
AcDbEntity
  8
0
  6
Continuous
 62
     7
370
    25
100
AcDbLine
 10
36.4404158109
 20
527.6559977
 30
0.0
 11
36.4404158109
 21
416.1742566292
 31
0.0
  0
LINE
  5
A8
330
1F
100
AcDbEntity
  8
0
  6
Continuous
 62
     7
370
    25
100
AcDbLine
 10
36.6921038741
 20
415.2029728656
 30
0.0
 11
81.1887332612
 21
335.1090377335
 31
0.0
  0
LINE
  5
A9
330
1F
100
AcDbEntity
  8
0
  6
Continuous
 62
     7
370
    25
100
AcDbLine
 10
191.6921013409
 20
335.1090377335
 30
0.0
 11
236.188730728
 21
415.2029728656
 31
0.0
  0
ARC
  5
AA
330
1F
100
AcDbEntity
  8
0
  6
Continuous
 62
     7
370
    25
100
AcDbCircle
 10
193.4404173011
 20
334.137752777
 30
0.0
 40
2.000000000000028
100
AcDbArc
 50
150.9453959009
 51
180.0
  0
ARC
  5
AB
330
1F
100
AcDbEntity
  8
0
  6
Continuous
 62
     7
370
    25
100
AcDbCircle
 10
79.4404173011
 20
334.137752777
 30
0.0
 40
2.000000000000028
100
AcDbArc
 50
0.0
 51
29.0546040991
  0
LINE
  5
AC
330
1F
100
AcDbEntity
  8
0
  6
Continuous
 62
     7
370
    25
100
AcDbLine
 10
191.440417003
 20
252.6560066407
 30
0.0
 11
191.440417003
 21
334.1377539699
 31
0.0
  0
LINE
  5
AD
330
1F
100
AcDbEntity
  8
0
  6
Continuous
 62
     7
370
    25
100
AcDbLine
 10
81.4404175991
 20
334.1377539699
 30
0.0
 11
81.4404175991
 21
252.6560066407
 31
0.0
  0
LINE
  5
AE
330
1F
100
AcDbEntity
  8
0
  6
Continuous
 62
     7
370
    25
100
AcDbLine
 10
236.4404187912
 20
527.6559977
 30
0.0
 11
36.4404158109
 21
527.6559977
 31
0.0
  0
LINE
  5
AF
330
1F
100
AcDbEntity
  8
0
  6
Continuous
 62
     7
370
    25
100
AcDbLine
 10
191.440417003
 20
252.6560066407
 30
0.0
 11
81.4404175991
 21
252.6560066407
 31
0.0
  0
LINE
  5
B0
330
1F
100
AcDbEntity
  8
0
  6
Continuous
 62
     1
370
    25
100
AcDbLine
 10
236.188730728
 20
415.2029728656
 30
0.0
 11
36.6921038741
 21
415.2029728656
 31
0.0
  0
LINE
  5
B1
330
1F
100
AcDbEntity
  8
0
  6
Continuous
 62
     1
370
    25
100
AcDbLine
 10
236.4404187912
 20
416.1742566292
 30
0.0
 11
36.4404158109
 21
416.1742566292
 31
0.0
  0
LINE
  5
B2
330
1F
100
AcDbEntity
  8
0
  6
Continuous
 62
     1
370
    25
100
AcDbLine
 10
191.6921013409
 20
335.1090377335
 30
0.0
 11
81.1887332612
 21
335.1090377335
 31
0.0
  0
LINE
  5
B3
330
1F
100
AcDbEntity
  8
0
  6
Continuous
 62
     1
370
    25
100
AcDbLine
 10
191.440417003
 20
334.1377539699
 30
0.0
 11
81.4404175991
 21
334.1377539699
 31
0.0
  0
ARC
  5
B4
330
1F
100
AcDbEntity
  8
0
  6
Continuous
 62
     7
370
    25
100
AcDbCircle
 10
472.2976821941
 20
18.0016280628
 30
0.0
 40
2.000000000000019
100
AcDbArc
 50
240.9453959009
 51
270.0
  0
ARC
  5
B5
330
1F
100
AcDbEntity
  8
0
  6
Continuous
 62
     7
370
    25
100
AcDbCircle
 10
472.2976821941
 20
214.0016280628
 30
0.0
 40
2.000000000000028
100
AcDbArc
 50
90.0
 51
119.0546040991
  0
LINE
  5
B6
330
1F
100
AcDbEntity
  8
0
  6
Continuous
 62
     7
370
    25
100
AcDbLine
 10
472.2976819335
 20
16.0016265727
 30
0.0
 11
583.7794230042
 21
16.0016265727
 31
0.0
  0
LINE
  5
B7
330
1F
100
AcDbEntity
  8
0
  6
Continuous
 62
     7
370
    25
100
AcDbLine
 10
583.7794230042
 20
216.0016295529
 30
0.0
 11
472.2976819335
 21
216.0016295529
 31
0.0
  0
LINE
  5
B8
330
1F
100
AcDbEntity
  8
0
  6
Continuous
 62
     7
370
    25
100
AcDbLine
 10
471.3263981698
 20
215.7499414897
 30
0.0
 11
391.2324630378
 21
171.2533121026
 31
0.0
  0
LINE
  5
B9
330
1F
100
AcDbEntity
  8
0
  6
Continuous
 62
     7
370
    25
100
AcDbLine
 10
391.2324630378
 20
60.7499440229
 30
0.0
 11
471.3263981698
 21
16.2533146358
 31
0.0
  0
ARC
  5
BA
330
1F
100
AcDbEntity
  8
0
  6
Continuous
 62
     7
370
    25
100
AcDbCircle
 10
390.2611780813
 20
59.0016280628
 30
0.0
 40
2.000000000000014
100
AcDbArc
 50
60.9453959009
 51
90.0
  0
ARC
  5
BB
330
1F
100
AcDbEntity
  8
0
  6
Continuous
 62
     7
370
    25
100
AcDbCircle
 10
390.2611780813
 20
173.0016280628
 30
0.0
 40
2.000000000000028
100
AcDbArc
 50
270.0
 51
299.0546040991
  0
LINE
  5
BC
330
1F
100
AcDbEntity
  8
0
  6
Continuous
 62
     7
370
    25
100
AcDbLine
 10
308.7794319449
 20
61.0016283608
 30
0.0
 11
390.2611792741
 21
61.0016283608
 31
0.0
  0
LINE
  5
BD
330
1F
100
AcDbEntity
  8
0
  6
Continuous
 62
     7
370
    25
100
AcDbLine
 10
390.2611792741
 20
171.0016277647
 30
0.0
 11
308.7794319449
 21
171.0016277647
 31
0.0
  0
LINE
  5
BE
330
1F
100
AcDbEntity
  8
0
  6
Continuous
 62
     7
370
    25
100
AcDbLine
 10
583.7794230042
 20
116.0016280628
 30
0.0
 11
583.7794230042
 21
216.0016295529
 31
0.0
  0
LINE
  5
BF
330
1F
100
AcDbEntity
  8
0
  6
Continuous
 62
     7
370
    25
100
AcDbLine
 10
583.7794230042
 20
16.0016265727
 30
0.0
 11
583.7794230042
 21
116.0016280628
 31
0.0
  0
LINE
  5
C0
330
1F
100
AcDbEntity
  8
0
  6
Continuous
 62
     7
370
    25
100
AcDbLine
 10
308.7794319449
 20
116.0016280628
 30
0.0
 11
308.7794319449
 21
171.0016277647
 31
0.0
  0
LINE
  5
C1
330
1F
100
AcDbEntity
  8
0
  6
Continuous
 62
     7
370
    25
100
AcDbLine
 10
308.7794319449
 20
61.0016283608
 30
0.0
 11
308.7794319449
 21
116.0016280628
 31
0.0
  0
LINE
  5
C2
330
1F
100
AcDbEntity
  8
0
  6
Continuous
 62
     1
370
    25
100
AcDbLine
 10
471.3263981698
 20
116.0016280628
 30
0.0
 11
471.3263981698
 21
215.7499414897
 31
0.0
  0
LINE
  5
C3
330
1F
100
AcDbEntity
  8
0
  6
Continuous
 62
     1
370
    25
100
AcDbLine
 10
471.3263981698
 20
16.2533146358
 30
0.0
 11
471.3263981698
 21
116.0016280628
 31
0.0
  0
LINE
  5
C4
330
1F
100
AcDbEntity
  8
0
  6
Continuous
 62
     1
370
    25
100
AcDbLine
 10
472.2976819335
 20
116.0016280628
 30
0.0
 11
472.2976819335
 21
216.0016295529
 31
0.0
  0
LINE
  5
C5
330
1F
100
AcDbEntity
  8
0
  6
Continuous
 62
     1
370
    25
100
AcDbLine
 10
472.2976819335
 20
16.0016265727
 30
0.0
 11
472.2976819335
 21
116.0016280628
 31
0.0
  0
LINE
  5
C6
330
1F
100
AcDbEntity
  8
0
  6
Continuous
 62
     1
370
    25
100
AcDbLine
 10
391.2324630378
 20
116.0016280628
 30
0.0
 11
391.2324630378
 21
171.2533121026
 31
0.0
  0
LINE
  5
C7
330
1F
100
AcDbEntity
  8
0
  6
Continuous
 62
     1
370
    25
100
AcDbLine
 10
391.2324630378
 20
60.7499440229
 30
0.0
 11
391.2324630378
 21
116.0016280628
 31
0.0
  0
LINE
  5
C8
330
1F
100
AcDbEntity
  8
0
  6
Continuous
 62
     1
370
    25
100
AcDbLine
 10
390.2611792741
 20
116.0016280628
 30
0.0
 11
390.2611792741
 21
171.0016277647
 31
0.0
  0
LINE
  5
C9
330
1F
100
AcDbEntity
  8
0
  6
Continuous
 62
     1
370
    25
100
AcDbLine
 10
390.2611792741
 20
61.0016283608
 30
0.0
 11
390.2611792741
 21
116.0016280628
 31
0.0
  0
ARC
  5
CA
330
1F
100
AcDbEntity
  8
0
  6
Continuous
 62
     7
370
    25
100
AcDbCircle
 10
38.4404173011
 20
-203.4233625285
 30
0.0
 40
2.000000000000036
100
AcDbArc
 50
150.9453959009
 51
180.0
  0
ARC
  5
CB
330
1F
100
AcDbEntity
  8
0
  6
Continuous
 62
     7
370
    25
100
AcDbCircle
 10
234.4404173011
 20
-203.4233625285
 30
0.0
 40
2.000000000000061
100
AcDbArc
 50
0.0
 51
29.0546040991
  0
LINE
  5
CC
330
1F
100
AcDbEntity
  8
0
  6
Continuous
 62
     7
370
    25
100
AcDbLine
 10
36.4404158109
 20
-203.4233622679
 30
0.0
 11
36.4404158109
 21
-314.9051033387
 31
0.0
  0
LINE
  5
CD
330
1F
100
AcDbEntity
  8
0
  6
Continuous
 62
     7
370
    25
100
AcDbLine
 10
236.4404187912
 20
-314.9051033387
 30
0.0
 11
236.4404187912
 21
-203.4233622679
 31
0.0
  0
LINE
  5
CE
330
1F
100
AcDbEntity
  8
0
  6
Continuous
 62
     7
370
    25
100
AcDbLine
 10
236.188730728
 20
-202.4520785043
 30
0.0
 11
191.6921013409
 21
-122.3581433722
 31
0.0
  0
LINE
  5
CF
330
1F
100
AcDbEntity
  8
0
  6
Continuous
 62
     7
370
    25
100
AcDbLine
 10
81.1887332612
 20
-122.3581433722
 30
0.0
 11
36.6921038741
 21
-202.4520785043
 31
0.0
  0
ARC
  5
D0
330
1F
100
AcDbEntity
  8
0
  6
Continuous
 62
     7
370
    25
100
AcDbCircle
 10
79.4404173011
 20
-121.3868584158
 30
0.0
 40
2.000000000000028
100
AcDbArc
 50
330.9453959009
 51
0.0
  0
ARC
  5
D1
330
1F
100
AcDbEntity
  8
0
  6
Continuous
 62
     7
370
    25
100
AcDbCircle
 10
193.4404173011
 20
-121.3868584158
 30
0.0
 40
2.000000000000028
100
AcDbArc
 50
180.0
 51
209.0546040991
  0
LINE
  5
D2
330
1F
100
AcDbEntity
  8
0
  6
Continuous
 62
     7
370
    25
100
AcDbLine
 10
81.4404175991
 20
-39.9051122794
 30
0.0
 11
81.4404175991
 21
-121.3868596086
 31
0.0
  0
LINE
  5
D3
330
1F
100
AcDbEntity
  8
0
  6
Continuous
 62
     7
370
    25
100
AcDbLine
 10
191.440417003
 20
-121.3868596086
 30
0.0
 11
191.440417003
 21
-39.9051122794
 31
0.0
  0
LINE
  5
D4
330
1F
100
AcDbEntity
  8
0
  6
Continuous
 62
     7
370
    25
100
AcDbLine
 10
36.4404158109
 20
-314.9051033387
 30
0.0
 11
236.4404187912
 21
-314.9051033387
 31
0.0
  0
LINE
  5
D5
330
1F
100
AcDbEntity
  8
0
  6
Continuous
 62
     7
370
    25
100
AcDbLine
 10
81.4404175991
 20
-39.9051122794
 30
0.0
 11
191.440417003
 21
-39.9051122794
 31
0.0
  0
LINE
  5
D6
330
1F
100
AcDbEntity
  8
0
  6
Continuous
 62
     1
370
    25
100
AcDbLine
 10
36.6921038741
 20
-202.4520785043
 30
0.0
 11
236.188730728
 21
-202.4520785043
 31
0.0
  0
LINE
  5
D7
330
1F
100
AcDbEntity
  8
0
  6
Continuous
 62
     1
370
    25
100
AcDbLine
 10
36.4404158109
 20
-203.4233622679
 30
0.0
 11
236.4404187912
 21
-203.4233622679
 31
0.0
  0
LINE
  5
D8
330
1F
100
AcDbEntity
  8
0
  6
Continuous
 62
     1
370
    25
100
AcDbLine
 10
81.1887332612
 20
-122.3581433722
 30
0.0
 11
191.6921013409
 21
-122.3581433722
 31
0.0
  0
LINE
  5
D9
330
1F
100
AcDbEntity
  8
0
  6
Continuous
 62
     1
370
    25
100
AcDbLine
 10
81.4404175991
 20
-121.3868596086
 30
0.0
 11
191.440417003
 21
-121.3868596086
 31
0.0
  0
LINE
  5
DA
330
1F
100
AcDbEntity
  8
0
  6
Continuous
 62
     7
370
    25
100
AcDbLine
 10
486.443190475
 20
-67.2637174702
 30
0.0
 11
407.6136953854
 21
-21.7564186051
 31
0.0
  0
LINE
  5
DB
330
1F
100
AcDbEntity
  8
0
  6
Continuous
 62
     7
370
    25
100
AcDbLine
 10
307.6218251166
 20
-194.9661920541
 30
0.0
 11
386.4513202062
 21
-240.4734909193
 31
0.0
  0
SPLINE
  5
DC
330
1F
100
AcDbEntity
  8
0
  6
Continuous
 62
     7
370
    25
100
AcDbSpline
210
0.0
220
0.0
230
1.0
 70
     8
 71
     3
 72
    13
 73
     9
 74
     0
 42
0.000000001
 43
0.00000001
 40
0.0
 40
0.0
 40
0.0
 40
0.0
 40
0.0631961728617661
 40
0.2888712777015192
 40
0.513950284812828
 40
0.7384170395202597
 40
0.9623035286898256
 40
1.0
 40
1.0
 40
1.0
 40
1.0
 10
499.6376538939055
 20
-80.46444775287526
 30
0.0
 10
499.4892252851487
 20
-80.20712796179886
 30
0.0
 10
498.8107544234265
 20
-79.03091279780922
 30
0.0
 10
497.4429147853448
 20
-77.11545805781617
 30
0.0
 10
495.5406490714224
 20
-74.72776950742718
 30
0.0
 10
493.4696140574954
 20
-72.56853814125584
 30
0.0
 10
491.90720320128
 20
-71.09826872950948
 30
0.0
 10
490.99554634574
 20
-70.41288766557363
 30
0.0
 10
490.8641683445255
 20
-70.31411805318825
 30
0.0
  0
SPLINE
  5
DD
330
1F
100
AcDbEntity
  8
0
  6
Continuous
 62
     7
370
    25
100
AcDbSpline
210
0.0
220
0.0
230
1.0
 70
     8
 71
     3
 72
    12
 73
     8
 74
     0
 42
0.000000001
 43
0.00000001
 40
0.0
 40
0.0
 40
0.0
 40
0.0
 40
0.1460244346863585
 40
0.3989656149907553
 40
0.6523590307656579
 40
0.9063332046044698
 40
1.0
 40
1.0
 40
1.0
 40
1.0
 10
391.6861300128311
 20
-242.9089198152688
 30
0.0
 10
392.212447216194
 20
-243.1098428113484
 30
0.0
 10
393.6504426254615
 20
-243.6588013939916
 30
0.0
 10
396.1148075493789
 20
-244.316606944993
 30
0.0
 10
399.0665580826345
 20
-244.884470724482
 30
0.0
 10
401.4565854665205
 20
-245.1927174575806
 30
0.0
 10
402.8833683568654
 20
-245.2386640676708
 30
0.0
 10
403.2677942240413
 20
-245.2510437124978
 30
0.0
  0
LINE
  5
DE
330
1F
100
AcDbEntity
  8
0
  6
Continuous
 62
     7
370
    25
100
AcDbLine
 10
410.8693892848
 20
-245.0183163571
 30
0.0
 11
479.2207339756
 21
-237.2289637992
 31
0.0
  0
LINE
  5
DF
330
1F
100
AcDbEntity
  8
0
  6
Continuous
 62
     7
370
    25
100
AcDbLine
 10
530.0257476729
 20
-149.2225628499
 30
0.0
 11
502.5899299966
 21
-86.1364633328
 31
0.0
  0
LINE
  5
E0
330
1F
100
AcDbEntity
  8
0
  6
Continuous
 62
     7
370
    25
100
AcDbLine
 10
579.5698843963
 20
-172.9847279884
 30
0.0
 11
527.2158067459
 21
-142.7613622833
 31
0.0
  0
LINE
  5
E1
330
1F
100
AcDbEntity
  8
0
  6
Continuous
 62
     7
370
    25
100
AcDbLine
 10
472.2202754639
 20
-238.0267404177
 30
0.0
 11
524.5743531143
 21
-268.2501061228
 31
0.0
  0
LWPOLYLINE
  5
E2
330
1F
100
AcDbEntity
  8
0
  6
Continuous
 62
     7
370
    25
100
AcDbPolyline
 90
      122
 70
   128
 43
0.0
 10
286.9070810787
 20
-149.181711529
 10
287.0023961766
 20
-144.8885287414
 10
287.2880727842
 20
-140.4968777878
 10
287.7633469897
 20
-136.0185944411
 10
288.4269385828
 20
-131.4657501691
 10
289.277051054
 20
-126.8506247579
 10
290.3114032051
 20
-122.1856515618
 10
291.527197539
 20
-117.4834114164
 10
292.9211624067
 20
-112.756580931
 10
294.4895414702
 20
-108.0178975067
 10
296.2280989713
 20
-103.2801426062
 10
298.1321513414
 20
-98.5560885248
 10
300.1965672017
 20
-93.8584649297
 10
302.4157831683
 20
-89.1999345271
 10
304.7838091202
 20
-84.5930687274
 10
307.2942703467
 20
-80.0502716031
 10
309.9403917418
 20
-75.5837950965
 10
312.7150452198
 20
-71.2056812293
 10
315.6107497151
 20
-66.9277316833
 10
318.6196948898
 20
-62.761481948
 10
321.733772744
 20
-58.7181648202
 10
324.9445881522
 20
-54.8086739037
 10
328.2434825712
 20
-51.0435499225
 10
331.6215656503
 20
-47.432944222
 10
335.0697310358
 20
-43.9865913938
 10
338.5786813966
 20
-40.7137826615
 10
342.1389573992
 20
-37.623336986
 10
345.7409627331
 20
-34.7235927031
 10
349.3749845254
 20
-32.0223592354
 10
353.0312272557
 20
-29.5269218488
 10
356.6998349823
 20
-27.2440105708
 10
360.3709171899
 20
-25.1797791845
 10
364.034577107
 20
-23.3397827982
 10
367.6809387063
 20
-21.7289926769
 10
371.3001722231
 20
-20.3517510918
 10
374.8825200034
 20
-19.2117685665
 10
378.4183244921
 20
-18.3121138033
 10
381.898053916
 20
-17.6552171076
 10
385.3123306012
 20
-17.2428418734
 10
388.6519441442
 20
-17.076113482
 10
391.9078988272
 20
-17.1554736786
 10
395.0714096663
 20
-17.4807071886
 10
398.1339550956
 20
-18.050935638
 10
401.0872743328
 20
-18.8646251585
 10
403.9234068919
 20
-19.9195879119
 10
406.6347083882
 20
-21.2129668824
 10
409.2138689778
 20
-22.7412860685
 10
411.6539344305
 20
-24.5004261507
 10
413.9483298381
 20
-26.4856320981
 10
416.0908648822
 20
-28.6915648803
 10
418.0757707128
 20
-31.1122710526
 10
419.8976894119
 20
-33.7412283823
 10
421.5517161399
 20
-36.5713488952
 10
423.0333833309
 20
-39.5950032082
 10
424.3387081078
 20
-42.8040327018
 10
425.464160672
 20
-46.1897997072
 10
426.4067117186
 20
-49.743167739
 10
427.1638166319
 20
-53.4545623307
 10
427.7334418262
 20
-57.3139725579
 10
428.1140489417
 20
-61.3109974253
 10
428.3046053805
 20
-65.4348644989
 10
428.3046053805
 20
-69.6744519616
 10
428.1140489417
 20
-74.0183308164
 10
427.7334418262
 20
-78.4547953056
 10
427.1638166319
 20
-82.9718807832
 10
426.4067117186
 20
-87.5574101012
 10
425.464160672
 20
-92.1990244075
 10
424.3387081078
 20
-96.8842112846
 10
423.0333833309
 20
-101.6003366861
 10
421.5517161399
 20
-106.3346875247
 10
419.8976894119
 20
-111.0745066487
 10
418.0757707128
 20
-115.8070065332
 10
416.0908648822
 20
-120.5194361968
 10
413.9483298381
 20
-125.1990872863
 10
411.6539344305
 20
-129.8333457846
 10
409.2138689778
 20
-134.409725472
 10
406.6347083882
 20
-138.9158800898
 10
403.9234068919
 20
-143.3396611354
 10
401.0872743328
 20
-147.6691528413
 10
398.1339550956
 20
-151.8926721728
 10
395.0714096663
 20
-155.9988403103
 10
391.9078988272
 20
-159.9765856891
 10
388.6519441442
 20
-163.815191145
 10
385.3123306012
 20
-167.5042984766
 10
381.898053916
 20
-171.0339631944
 10
378.4183244921
 20
-174.3946765743
 10
374.8825200034
 20
-177.5773747784
 10
371.3001722231
 20
-180.5734829611
 10
367.6809387063
 20
-183.3749194488
 10
364.034577107
 20
-185.9741288176
 10
360.3709171899
 20
-188.3641041342
 10
356.6998349823
 20
-190.5384140449
 10
353.0312272557
 20
-192.491187089
 10
349.3749845254
 20
-194.2171577037
 10
345.7409627331
 20
-195.7116764882
 10
342.1389573992
 20
-196.9707190415
 10
338.5786813966
 20
-197.9908805419
 10
335.0697310358
 20
-198.7694196608
 10
331.6215656503
 20
-199.3042338452
 10
328.2434825712
 20
-199.5938798486
 10
324.9445881522
 20
-199.6375782906
 10
321.733772744
 20
-199.4352159359
 10
318.6196948898
 20
-198.9873365675
 10
315.6107497151
 20
-198.2951409835
 10
312.7150452198
 20
-197.3605006835
 10
309.9403917418
 20
-196.1859335326
 10
307.2942703467
 20
-194.7746037582
 10
304.7838091202
 20
-193.1303234693
 10
302.4157831683
 20
-191.2575222375
 10
300.1965672017
 20
-189.1612440508
 10
298.1321513414
 20
-186.8471442734
 10
296.2280989713
 20
-184.3214622649
 10
294.4895414702
 20
-181.5910031286
 10
292.9211624067
 20
-178.6631316268
 10
291.527197539
 20
-175.5457387197
 10
290.3114032051
 20
-172.2472248331
 10
289.277051054
 20
-168.7764892106
 10
288.4269385828
 20
-165.1428827664
 10
287.7633469897
 20
-161.3562050395
 10
287.2880727842
 20
-157.4266616103
 10
287.0023961766
 20
-153.3648458471
 10
286.9070810787
 20
-149.181711529
  0
LWPOLYLINE
  5
E3
330
1F
100
AcDbEntity
  8
0
  6
Continuous
 62
     7
370
    25
100
AcDbPolyline
 90
      114
 70
   128
 43
0.0
 10
295.3216519687
 20
-144.3240831518
 10
295.4179311758
 20
-140.2706071032
 10
295.7064632323
 20
-136.1185026085
 10
296.1863577862
 20
-131.8806042967
 10
296.8561396976
 20
-127.570005299
 10
297.7137279661
 20
-123.2000340534
 10
298.7564778767
 20
-118.784198414
 10
299.9811599273
 20
-114.3361468658
 10
301.3839967066
 20
-109.8696267024
 10
302.9606523575
 20
-105.3984414395
 10
304.7062431139
 20
-100.9364219177
 10
306.6153847159
 20
-96.4973441777
 10
308.6821713365
 20
-92.094941625
 10
310.900217728
 20
-87.742813779
 10
313.2626592225
 20
-83.4544201885
 10
315.7622044152
 20
-79.2430104749
 10
318.3911219937
 20
-75.1216045584
 10
321.1412855185
 20
-71.1029394298
 10
324.0041971315
 20
-67.1994402553
 10
326.9710033602
 20
-63.4231717086
 10
330.0325398993
 20
-59.7857999513
 10
333.179339513
 20
-56.2985698203
 10
336.401678133
 20
-52.9722660484
 10
339.689593298
 20
-49.8171722009
 10
343.0329236663
 20
-46.8430296145
 10
346.4213353574
 20
-44.0590343576
 10
349.8443542209
 20
-41.4737942677
 10
353.2914004101
 20
-39.0953029082
 10
356.7518191687
 20
-36.9309096285
 10
360.2149142522
 20
-34.9873002702
 10
363.6699818427
 20
-33.2704836722
 10
367.1063421595
 20
-31.7857734221
 10
370.513373538
 20
-30.5377499322
 10
373.8805458516
 20
-29.5302776472
 10
377.1974514629
 20
-28.7664689255
 10
380.453836834
 20
-28.2486779587
 10
383.6396354534
 20
-27.9785121811
 10
386.745004715
 20
-27.9568048971
 10
389.7603404056
 20
-28.1836312516
 10
392.6763280717
 20
-28.6582724938
 10
395.483950922
 20
-29.3792722516
 10
398.174531974
 20
-30.3444061172
 10
400.7397524934
 20
-31.5506831701
 10
403.1716862385
 20
-32.9943748774
 10
405.4628152654
 20
-34.6710242212
 10
407.6060562691
 20
-36.5754457007
 10
409.5947921946
 20
-38.7017496705
 10
411.4228643336
 20
-41.0433712369
 10
413.0846302767
 20
-43.593067222
 10
414.5749533767
 20
-46.3429587483
 10
415.8892185538
 20
-49.2845479703
 10
417.0233744422
 20
-52.4087363299
 10
417.9739123167
 20
-55.7058717027
 10
418.7378924346
 20
-59.1657620893
 10
419.312949304
 20
-62.7777143991
 10
419.6973127573
 20
-66.530562209
 10
419.8897921461
 20
-70.4127060669
 10
419.8897921461
 20
-74.4121469531
 10
419.6973127573
 20
-78.5165227829
 10
419.312949304
 20
-82.71314719
 10
418.7378924346
 20
-86.9890460287
 10
417.9739123167
 20
-91.331009084
 10
417.0233744422
 20
-95.7256121265
 10
415.8892185538
 20
-100.1592690019
 10
414.5749533767
 20
-104.6182764982
 10
413.0846302767
 20
-109.0888584499
 10
411.4228643336
 20
-113.5571885536
 10
409.5947921946
 20
-118.0094572853
 10
407.6060562691
 20
-122.4319068798
 10
405.4628152654
 20
-126.8108617504
 10
403.1716862385
 20
-131.1327923621
 10
400.7397524934
 20
-135.3843350048
 10
398.174531974
 20
-139.552352627
 10
395.483950922
 20
-143.6239652519
 10
392.6763280717
 20
-147.586577353
 10
389.7603404056
 20
-151.4279462917
 10
386.745004715
 20
-155.1362051302
 10
383.6396354534
 20
-158.6998808786
 10
380.453836834
 20
-162.1079598934
 10
377.1974514629
 20
-165.3499114476
 10
373.8805458516
 20
-168.415720429
 10
370.513373538
 20
-171.2959025463
 10
367.1063421595
 20
-173.9815537554
 10
363.6699818427
 20
-176.4643806756
 10
360.2149142522
 20
-178.7367002065
 10
356.7518191687
 20
-180.7914953232
 10
353.2914004101
 20
-182.6224164995
 10
349.8443542209
 20
-184.223799956
 10
346.4213353574
 20
-185.5906933224
 10
343.0329236663
 20
-186.7188749311
 10
339.689593298
 20
-187.6048594227
 10
336.401678133
 20
-188.2459116215
 10
333.179339513
 20
-188.6400408286
 10
330.0325398993
 20
-188.7860281963
 10
326.9710033602
 20
-188.6834312873
 10
324.0041971315
 20
-188.3325643005
 10
321.1412855185
 20
-187.734512516
 10
318.3911219937
 20
-186.8911186056
 10
315.7622044152
 20
-185.8049963173
 10
313.2626592225
 20
-184.4795000548
 10
310.900217728
 20
-182.918723355
 10
308.6821713365
 20
-181.1274973622
 10
306.6153847159
 20
-179.1113558487
 10
304.7062431139
 20
-176.8765260837
 10
302.9606523575
 20
-174.4299227499
 10
301.3839967066
 20
-171.7791053539
 10
299.9811599273
 20
-168.9322660599
 10
298.7564778767
 20
-165.8982023097
 10
297.7137279661
 20
-162.6863000908
 10
296.8561396976
 20
-159.3064791839
 10
296.1863577862
 20
-155.7691939208
 10
295.7064632323
 20
-152.0853700671
 10
295.4179311758
 20
-148.266397594
 10
295.3216519687
 20
-144.3240831518
  0
ARC
  5
E4
330
1F
100
AcDbEntity
  8
0
  6
Continuous
 62
     7
370
    25
100
AcDbCircle
 10
469.6197025174
 20
-96.381489551
 30
0.0
 40
33.62847599886999
100
AcDbArc
 50
51.1699764205
 51
59.9818002921
  0
LWPOLYLINE
  5
E5
330
1F
100
AcDbEntity
  8
0
  6
Continuous
 62
     7
370
    25
100
AcDbPolyline
 90
        3
 70
   128
 43
0.0
 10
391.4740549737
 20
-242.8414900443
 10
388.7698868314
 20
-241.6932323977
 10
386.4513202062
 20
-240.4734909193
  0
ARC
  5
E6
330
1F
100
AcDbEntity
  8
0
  6
Continuous
 62
     7
370
    25
100
AcDbCircle
 10
452.7339054389
 20
-108.057532524
 30
0.0
 40
54.43279118955822
100
AcDbArc
 50
10.2867003896
 51
30.3045715858
  0
ARC
  5
E7
330
1F
100
AcDbEntity
  8
0
  6
Continuous
 62
     7
370
    25
100
AcDbCircle
 10
405.3255719569
 20
-193.1385829884
 30
0.0
 40
52.16609758844491
100
AcDbArc
 50
267.9486719787
 51
289.6994421726
  0
ARC
  5
E8
330
1F
100
AcDbEntity
  8
0
  6
Continuous
 62
     7
370
    25
100
AcDbCircle
 10
500.4377064909
 20
-161.8786656663
 30
0.0
 40
32.18119201469891
100
AcDbArc
 50
11.3746356274
 51
23.1585198007
  0
ARC
  5
E9
330
1F
100
AcDbEntity
  8
0
  6
Continuous
 62
     7
370
    25
100
AcDbCircle
 10
475.7556706232
 20
-207.3123577744
 30
0.0
 40
30.11660638390966
100
AcDbArc
 50
276.6067920203
 51
284.4859980269
  0
LWPOLYLINE
  5
EA
330
1F
100
AcDbEntity
  8
0
  6
Continuous
 62
     7
370
    25
100
AcDbPolyline
 90
       46
 70
   128
 43
0.0
 10
579.5698843963
 20
-172.9847279884
 10
580.7583570357
 20
-173.732858183
 10
582.5392694853
 20
-175.1169567259
 10
584.1683953284
 20
-176.7277350142
 10
585.6376212966
 20
-178.5571694028
 10
586.939624375
 20
-180.5961473385
 10
588.0679192172
 20
-182.8345084283
 10
589.0168844874
 20
-185.2611037589
 10
589.7817944702
 20
-187.8638400059
 10
590.3588348757
 20
-190.629753961
 10
590.7451344499
 20
-193.5450646264
 10
590.9387649745
 20
-196.5952491664
 10
590.9387649745
 20
-199.7651104002
 10
590.7451344499
 20
-203.0388559853
 10
590.3588348757
 20
-206.4001786454
 10
589.7817944702
 20
-209.8323292714
 10
589.0168844874
 20
-213.3182117862
 10
588.0679192172
 20
-216.8404590961
 10
586.939624375
 20
-220.381521682
 10
585.6376212966
 20
-223.9237603742
 10
584.1683953284
 20
-227.4495269583
 10
582.5392694853
 20
-230.9412539079
 10
580.7583570357
 20
-234.3815501978
 10
578.8345298911
 20
-237.753275827
 10
576.7773738254
 20
-241.0396300279
 10
574.5971384254
 20
-244.2242409961
 10
572.304684407
 20
-247.291244974
 10
569.9114335662
 20
-250.2253607709
 10
567.4293068757
 20
-253.0119711274
 10
564.8706718014
 20
-255.6371957142
 10
562.2482757893
 20
-258.0879508228
 10
559.5751817282
 20
-260.3520292076
 10
556.8647083515
 20
-262.4181527427
 10
554.1303581267
 20
-264.2760262176
 10
551.3857539522
 20
-265.916398216
 10
548.6445691055
 20
-267.3310893889
 10
545.9204602356
 20
-268.5130554717
 10
543.22699871
 20
-269.4564086656
 10
540.5776036901
 20
-270.1564501888
 10
537.9854724079
 20
-270.6096892342
 10
535.4635208968
 20
-270.8138680586
 10
533.024312869
 20
-270.7679726231
 10
530.6799997877
 20
-270.4722276438
 10
528.4422615983
 20
-269.9281095148
 10
526.3222461423
 20
-269.1383295718
 10
524.5743531143
 20
-268.2501061228
  0
LWPOLYLINE
  5
EB
330
1F
100
AcDbEntity
  8
0
  6
Continuous
 62
     1
370
    25
100
AcDbPolyline
 90
       59
 70
   128
 43
0.0
 10
490.7051640902
 20
-70.1845869045
 10
492.7778249277
 20
-71.9929309633
 10
494.9203599718
 20
-74.1988637455
 10
496.9052658024
 20
-76.6195699177
 10
498.7271845015
 20
-79.2485272474
 10
500.3812112295
 20
-82.0786477603
 10
501.8628784206
 20
-85.1023020733
 10
503.1682031974
 20
-88.3113315669
 10
504.2936557616
 20
-91.6970985723
 10
505.2362068082
 20
-95.2504666042
 10
505.9933117215
 20
-98.9618611958
 10
506.5629369158
 20
-102.821271423
 10
506.9435440313
 20
-106.8182962905
 10
507.1341004701
 20
-110.9421633641
 10
507.1341004701
 20
-115.1817508267
 10
506.9435440313
 20
-119.5256296815
 10
506.5629369158
 20
-123.9620941707
 10
505.9933117215
 20
-128.4791796483
 10
505.2362068082
 20
-133.0647089663
 10
504.2936557616
 20
-137.7063232727
 10
503.1682031974
 20
-142.3915101497
 10
501.8628784206
 20
-147.1076355513
 10
500.3812112295
 20
-151.8419863899
 10
498.7271845015
 20
-156.5818055138
 10
496.9052658024
 20
-161.3143053983
 10
494.9203599718
 20
-166.0267350619
 10
492.7778249277
 20
-170.7063861514
 10
490.4834295201
 20
-175.3406446497
 10
488.0433640674
 20
-179.9170243371
 10
485.4642034778
 20
-184.4231789549
 10
482.7529019815
 20
-188.8469600005
 10
479.9167694224
 20
-193.1764517064
 10
476.9634501852
 20
-197.399971038
 10
473.9009047559
 20
-201.5061391754
 10
470.7373939168
 20
-205.4838845543
 10
467.4814392338
 20
-209.3224900101
 10
464.1418256908
 20
-213.0115973417
 10
460.7275490056
 20
-216.5412620596
 10
457.2478195817
 20
-219.9019754394
 10
453.712015093
 20
-223.0846736435
 10
450.1296673127
 20
-226.0807818262
 10
446.5104337959
 20
-228.882218314
 10
442.8640721966
 20
-231.4814276828
 10
439.2004122795
 20
-233.8714029993
 10
435.5293300719
 20
-236.0457129101
 10
431.8607223453
 20
-237.9984859541
 10
428.204479615
 20
-239.7244565688
 10
424.5704578227
 20
-241.2189753533
 10
420.9684524888
 20
-242.4780179066
 10
417.4081764862
 20
-243.4981794071
 10
413.8992261254
 20
-244.2767185259
 10
410.4510607399
 20
-244.8115327103
 10
407.0729776608
 20
-245.1011787138
 10
403.7740832418
 20
-245.1448771558
 10
400.5632678336
 20
-244.9425148011
 10
397.4491899794
 20
-244.4946354326
 10
394.4402448047
 20
-243.8024398487
 10
391.5445403094
 20
-242.8677995487
 10
391.4740549737
 20
-242.8414900443
  0
ARC
  5
EC
330
1F
100
AcDbEntity
  8
0
  6
Continuous
 62
     1
370
    25
100
AcDbCircle
 10
517.9489904226
 20
-200.9185574644
 30
0.0
 40
145.6603399775418
100
AcDbArc
 50
133.8863654863
 51
166.1190094435
  0
LWPOLYLINE
  5
ED
330
1F
100
AcDbEntity
  8
0
  6
Continuous
 62
     1
370
    25
100
AcDbPolyline
 90
       39
 70
   128
 43
0.0
 10
506.291771995
 20
-98.337260581
 10
506.7983929192
 20
-101.3073575379
 10
507.2803790104
 20
-105.2567823783
 10
507.5701017154
 20
-109.3405340732
 10
507.6667655125
 20
-113.5474200553
 10
507.5701017154
 20
-117.8659116819
 10
507.2803790104
 20
-122.2841700919
 10
506.7983929192
 20
-126.7900842279
 10
506.1254552624
 20
-131.3713088586
 10
505.2634205015
 20
-136.0152820713
 10
504.2146488599
 20
-140.7092762201
 10
502.9820115916
 20
-145.4404291052
 10
501.5688909813
 20
-150.195766026
 10
499.9791592707
 20
-154.9622560537
 10
498.2171733902
 20
-159.7268378867
 10
496.2877644223
 20
-164.4764472257
 10
494.1962165283
 20
-169.1980715255
 10
491.9482669477
 20
-173.8787591206
 10
489.550074389
 20
-178.5056922263
 10
487.0082137604
 20
-183.0661838967
 10
484.3296498286
 20
-187.5477327754
 10
481.521726682
 20
-191.938056555
 10
478.5921440231
 20
-196.2251178302
 10
475.5489229238
 20
-200.3971742858
 10
472.4004110944
 20
-204.4427817386
 10
469.155235468
 20
-208.3508580119
 10
465.8222942979
 20
-212.1106874976
 10
462.4107202793
 20
-215.7119667804
 10
458.9298621102
 20
-219.1448274502
 10
455.3892647346
 20
-222.3998535906
 10
451.7986311472
 20
-225.4681281638
 10
448.1678032958
 20
-228.3412440353
 10
444.5067324465
 20
-231.0113149979
 10
440.8254535003
 20
-233.4710331845
 10
437.1340566764
 20
-235.7136549964
 10
433.4426598524
 20
-237.7330292383
 10
429.7613809062
 20
-239.5236252525
 10
426.1003100569
 20
-241.0805367187
 10
422.9100379446
 20
-242.2515985091
  0
LWPOLYLINE
  5
EE
330
1F
100
AcDbEntity
  8
0
  6
Continuous
 62
     1
370
    25
100
AcDbPolyline
 90
       31
 70
   128
 43
0.0
 10
531.9868141923
 20
-155.5317827518
 10
532.2309419098
 20
-156.8348656673
 10
532.6190063832
 20
-159.7635180593
 10
532.8135246258
 20
-162.8276599333
 10
532.8135246258
 20
-166.0120268067
 10
532.6190063832
 20
-169.3007546631
 10
532.2309419098
 20
-172.6774567592
 10
531.6512594237
 20
-176.1253144983
 10
530.8828512525
 20
-179.6271481544
 10
529.9295422228
 20
-183.1655138282
 10
528.7960843916
 20
-186.722779873
 10
527.4881228025
 20
-190.281228033
 10
526.012174412
 20
-193.8231294879
 10
524.3755912109
 20
-197.3308376259
 10
522.5865286144
 20
-200.7868777747
 10
520.653900681
 20
-204.1740293284
 10
518.587330063
 20
-207.47542156
 10
516.3971190308
 20
-210.674606624
 10
514.0941743984
 20
-213.755645481
 10
511.6899706453
 20
-216.703186983
 10
509.1964853792
 20
-219.5025507573
 10
506.6261427006
 20
-222.1397872778
 10
503.9917453733
 20
-224.601756567
 10
501.3064195066
 20
-226.8761966319
 10
498.5835421149
 20
-228.9517744086
 10
495.8366793797
 20
-230.8181518214
 10
493.0795156502
 20
-232.4660267703
 10
490.3257871358
 20
-233.8871927019
 10
487.5892126769
 20
-235.0745694491
 10
484.8834251737
 20
-236.0222397749
 10
483.2891409449
 20
-236.4715210853
  0
ARC
  5
EF
330
1F
100
AcDbEntity
  8
0
  6
Continuous
 62
     1
370
    25
100
AcDbCircle
 10
520.4465907332
 20
-202.3603916739
 30
0.0
 40
146.1732744160806
100
AcDbArc
 50
135.6788520109
 51
164.3265226337
  0
LWPOLYLINE
  5
F0
330
1F
100
AcDbEntity
  8
0
  6
Continuous
 62
     1
370
    25
100
AcDbPolyline
 90
       38
 70
   128
 43
0.0
 10
528.8779730841
 20
-146.5833618524
 10
529.3233282956
 20
-147.334967596
 10
530.4516231378
 20
-149.5733286858
 10
531.400588408
 20
-151.9999240164
 10
532.1654983907
 20
-154.6026602634
 10
532.7425387962
 20
-157.3685742184
 10
533.1288383704
 20
-160.2838848839
 10
533.322468895
 20
-163.3340694238
 10
533.322468895
 20
-166.5039306577
 10
533.1288383704
 20
-169.7776762427
 10
532.7425387962
 20
-173.1389989029
 10
532.1654983907
 20
-176.5711495289
 10
531.400588408
 20
-180.0570320437
 10
530.4516231378
 20
-183.5792793536
 10
529.3233282956
 20
-187.1203419395
 10
528.0213252172
 20
-190.6625806316
 10
526.552099249
 20
-194.1883472158
 10
524.9229734059
 20
-197.6800741653
 10
523.1420609563
 20
-201.1203704553
 10
521.2182338117
 20
-204.4920960845
 10
519.161077746
 20
-207.7784502854
 10
516.9808423459
 20
-210.9630612536
 10
514.6883883276
 20
-214.0300652315
 10
512.2951374868
 20
-216.9641810284
 10
509.8130107963
 20
-219.7507913848
 10
507.254375722
 20
-222.3760159716
 10
504.6319797098
 20
-224.8267710802
 10
501.9588856487
 20
-227.0908494651
 10
499.2484122721
 20
-229.1569730002
 10
496.5140620473
 20
-231.0148464751
 10
493.7694578728
 20
-232.6552184735
 10
491.0282730261
 20
-234.0699096464
 10
488.3041641562
 20
-235.2518757292
 10
485.6107026305
 20
-236.195228923
 10
482.9613076107
 20
-236.8952704463
 10
480.3691763285
 20
-237.3485094917
 10
477.8472248174
 20
-237.5526883161
 10
476.361261282
 20
-237.5548287513
  0
ENDSEC
  0
SECTION
  2
OBJECTS
  0
DICTIONARY
  5
C
330
0
100
AcDbDictionary
281
     1
  3
ACAD_GROUP
350
D
  3
ACAD_LAYOUT
350
1A
  3
ACAD_MLINESTYLE
350
17
  3
ACAD_PLOTSETTINGS
350
19
  3
ACAD_PLOTSTYLENAME
350
E
  3
ACAD_SCALELIST
350
47
  0
DICTIONARY
  5
D
102
{ACAD_REACTORS
330
C
102
}
330
C
100
AcDbDictionary
281
     1
  0
DICTIONARY
  5
1A
102
{ACAD_REACTORS
330
C
102
}
330
C
100
AcDbDictionary
281
     1
  3
Layout1
350
1E
  3
Layout2
350
26
  3
Model
350
22
  0
DICTIONARY
  5
17
102
{ACAD_REACTORS
330
C
102
}
330
C
100
AcDbDictionary
281
     1
  3
Standard
350
18
  0
DICTIONARY
  5
19
102
{ACAD_REACTORS
330
C
102
}
330
C
100
AcDbDictionary
281
     1
  0
ACDBDICTIONARYWDFLT
  5
E
102
{ACAD_REACTORS
330
C
102
}
330
C
100
AcDbDictionary
281
     1
  3
Normal
350
F
100
AcDbDictionaryWithDefault
340
F
  0
DICTIONARY
  5
47
102
{ACAD_REACTORS
330
C
102
}
330
C
100
AcDbDictionary
281
     1
  3
A0
350
48
  3
A1
350
49
  3
A2
350
4A
  3
A3
350
4B
  3
A4
350
4C
  3
A5
350
4D
  3
A6
350
4E
  3
A7
350
4F
  3
A8
350
50
  3
A9
350
51
  3
B0
350
52
  3
B1
350
53
  3
B2
350
54
  3
B3
350
55
  3
B4
350
56
  3
B5
350
57
  3
B6
350
58
  3
B7
350
59
  3
B8
350
5A
  3
B9
350
5B
  3
C0
350
5C
  3
C1
350
5D
  3
C2
350
5E
  3
C3
350
5F
  3
C4
350
60
  3
C5
350
61
  3
C6
350
62
  3
C7
350
63
  3
C8
350
64
  3
C9
350
65
  3
D0
350
66
  3
D1
350
67
  3
D2
350
68
  0
LAYOUT
  5
1E
102
{ACAD_REACTORS
330
1A
102
}
330
1A
100
AcDbPlotSettings
  1

  2
none_device
  4

  6

 40
0.0
 41
0.0
 42
0.0
 43
0.0
 44
0.0
 45
0.0
 46
0.0
 47
0.0
 48
0.0
 49
0.0
140
0.0
141
0.0
142
1.0
143
1.0
 70
   688
 72
     1
 73
     0
 74
     5
  7

 75
    16
147
1.0
148
0.0
149
0.0
100
AcDbLayout
  1
Layout1
 70
     1
 71
     1
 10
0.0
 20
0.0
 11
420.0
 21
297.0
 12
0.0
 22
0.0
 32
0.0
 14
1.0000000000E+20
 24
1.0000000000E+20
 34
1.0000000000E+20
 15
-1.0000000000E+20
 25
-1.0000000000E+20
 35
-1.0000000000E+20
146
0.0
 13
0.0
 23
0.0
 33
0.0
 16
1.0
 26
0.0
 36
0.0
 17
0.0
 27
1.0
 37
0.0
 76
     0
330
1B
  0
LAYOUT
  5
26
102
{ACAD_REACTORS
330
1A
102
}
330
1A
100
AcDbPlotSettings
  1

  2
none_device
  4

  6

 40
0.0
 41
0.0
 42
0.0
 43
0.0
 44
0.0
 45
0.0
 46
0.0
 47
0.0
 48
0.0
 49
0.0
140
0.0
141
0.0
142
1.0
143
1.0
 70
   688
 72
     1
 73
     0
 74
     5
  7

 75
    16
147
1.0
148
0.0
149
0.0
100
AcDbLayout
  1
Layout2
 70
     1
 71
     2
 10
0.0
 20
0.0
 11
0.0
 21
0.0
 12
0.0
 22
0.0
 32
0.0
 14
0.0
 24
0.0
 34
0.0
 15
0.0
 25
0.0
 35
0.0
146
0.0
 13
0.0
 23
0.0
 33
0.0
 16
1.0
 26
0.0
 36
0.0
 17
0.0
 27
1.0
 37
0.0
 76
     0
330
23
  0
LAYOUT
  5
22
102
{ACAD_REACTORS
330
1A
102
}
330
1A
100
AcDbPlotSettings
  1

  2
none_device
  4
Letter_(8.50_x_11.00_Inches)
  6

 40
6.35
 41
6.35
 42
6.35000508
 43
6.35000508
 44
215.9
 45
279.4
 46
0.0
 47
0.0
 48
0.0
 49
0.0
140
0.0
141
0.0
142
1.0
143
1.0
 70
  1712
 72
     1
 73
     0
 74
     0
  7

 75
     0
147
1.0
148
0.0
149
0.0
100
AcDbLayout
  1
Model
 70
     1
 71
     0
 10
0.0
 20
0.0
 11
279.4
 21
215.9
 12
0.0
 22
0.0
 32
0.0
 14
0.0
 24
0.0
 34
0.0
 15
279.4
 25
215.9
 35
0.0
146
0.0
 13
0.0
 23
0.0
 33
0.0
 16
1.0
 26
0.0
 36
0.0
 17
0.0
 27
1.0
 37
0.0
 76
     0
330
1F
331
29
  0
MLINESTYLE
  5
18
102
{ACAD_REACTORS
330
17
102
}
330
17
100
AcDbMlineStyle
  2
Standard
 70
     0
  3

 62
   256
 51
90.0
 52
90.0
 71
     2
 49
0.5
 62
   256
  6
BYLAYER
 49
-0.5
 62
   256
  6
BYLAYER
  0
ACDBPLACEHOLDER
  5
F
102
{ACAD_REACTORS
330
E
102
}
330
E
  0
SCALE
  5
48
102
{ACAD_REACTORS
330
47
102
}
330
47
100
AcDbScale
 70
     0
300
1:1
140
1.0
141
1.0
290
     1
  0
SCALE
  5
49
102
{ACAD_REACTORS
330
47
102
}
330
47
100
AcDbScale
 70
     0
300
1:2
140
1.0
141
2.0
290
     0
  0
SCALE
  5
4A
102
{ACAD_REACTORS
330
47
102
}
330
47
100
AcDbScale
 70
     0
300
1:4
140
1.0
141
4.0
290
     0
  0
SCALE
  5
4B
102
{ACAD_REACTORS
330
47
102
}
330
47
100
AcDbScale
 70
     0
300
1:5
140
1.0
141
5.0
290
     0
  0
SCALE
  5
4C
102
{ACAD_REACTORS
330
47
102
}
330
47
100
AcDbScale
 70
     0
300
1:8
140
1.0
141
8.0
290
     0
  0
SCALE
  5
4D
102
{ACAD_REACTORS
330
47
102
}
330
47
100
AcDbScale
 70
     0
300
1:10
140
1.0
141
10.0
290
     0
  0
SCALE
  5
4E
102
{ACAD_REACTORS
330
47
102
}
330
47
100
AcDbScale
 70
     0
300
1:16
140
1.0
141
16.0
290
     0
  0
SCALE
  5
4F
102
{ACAD_REACTORS
330
47
102
}
330
47
100
AcDbScale
 70
     0
300
1:20
140
1.0
141
20.0
290
     0
  0
SCALE
  5
50
102
{ACAD_REACTORS
330
47
102
}
330
47
100
AcDbScale
 70
     0
300
1:30
140
1.0
141
30.0
290
     0
  0
SCALE
  5
51
102
{ACAD_REACTORS
330
47
102
}
330
47
100
AcDbScale
 70
     0
300
1:40
140
1.0
141
40.0
290
     0
  0
SCALE
  5
52
102
{ACAD_REACTORS
330
47
102
}
330
47
100
AcDbScale
 70
     0
300
1:50
140
1.0
141
50.0
290
     0
  0
SCALE
  5
53
102
{ACAD_REACTORS
330
47
102
}
330
47
100
AcDbScale
 70
     0
300
1:100
140
1.0
141
100.0
290
     0
  0
SCALE
  5
54
102
{ACAD_REACTORS
330
47
102
}
330
47
100
AcDbScale
 70
     0
300
2:1
140
2.0
141
1.0
290
     0
  0
SCALE
  5
55
102
{ACAD_REACTORS
330
47
102
}
330
47
100
AcDbScale
 70
     0
300
4:1
140
4.0
141
1.0
290
     0
  0
SCALE
  5
56
102
{ACAD_REACTORS
330
47
102
}
330
47
100
AcDbScale
 70
     0
300
8:1
140
8.0
141
1.0
290
     0
  0
SCALE
  5
57
102
{ACAD_REACTORS
330
47
102
}
330
47
100
AcDbScale
 70
     0
300
10:1
140
10.0
141
1.0
290
     0
  0
SCALE
  5
58
102
{ACAD_REACTORS
330
47
102
}
330
47
100
AcDbScale
 70
     0
300
100:1
140
100.0
141
1.0
290
     0
  0
SCALE
  5
59
102
{ACAD_REACTORS
330
47
102
}
330
47
100
AcDbScale
 70
     0
300
1/128" = 1'-0"
140
0.0078125
141
12.0
290
     0
  0
SCALE
  5
5A
102
{ACAD_REACTORS
330
47
102
}
330
47
100
AcDbScale
 70
     0
300
1/64" = 1'-0"
140
0.015625
141
12.0
290
     0
  0
SCALE
  5
5B
102
{ACAD_REACTORS
330
47
102
}
330
47
100
AcDbScale
 70
     0
300
1/32" = 1'-0"
140
0.03125
141
12.0
290
     0
  0
SCALE
  5
5C
102
{ACAD_REACTORS
330
47
102
}
330
47
100
AcDbScale
 70
     0
300
1/16" = 1'-0"
140
0.0625
141
12.0
290
     0
  0
SCALE
  5
5D
102
{ACAD_REACTORS
330
47
102
}
330
47
100
AcDbScale
 70
     0
300
3/32" = 1'-0"
140
0.09375
141
12.0
290
     0
  0
SCALE
  5
5E
102
{ACAD_REACTORS
330
47
102
}
330
47
100
AcDbScale
 70
     0
300
1/8" = 1'-0"
140
0.125
141
12.0
290
     0
  0
SCALE
  5
5F
102
{ACAD_REACTORS
330
47
102
}
330
47
100
AcDbScale
 70
     0
300
3/16" = 1'-0"
140
0.1875
141
12.0
290
     0
  0
SCALE
  5
60
102
{ACAD_REACTORS
330
47
102
}
330
47
100
AcDbScale
 70
     0
300
1/4" = 1'-0"
140
0.25
141
12.0
290
     0
  0
SCALE
  5
61
102
{ACAD_REACTORS
330
47
102
}
330
47
100
AcDbScale
 70
     0
300
3/8" = 1'-0"
140
0.375
141
12.0
290
     0
  0
SCALE
  5
62
102
{ACAD_REACTORS
330
47
102
}
330
47
100
AcDbScale
 70
     0
300
1/2" = 1'-0"
140
0.5
141
12.0
290
     0
  0
SCALE
  5
63
102
{ACAD_REACTORS
330
47
102
}
330
47
100
AcDbScale
 70
     0
300
3/4" = 1'-0"
140
0.75
141
12.0
290
     0
  0
SCALE
  5
64
102
{ACAD_REACTORS
330
47
102
}
330
47
100
AcDbScale
 70
     0
300
1" = 1'-0"
140
1.0
141
12.0
290
     0
  0
SCALE
  5
65
102
{ACAD_REACTORS
330
47
102
}
330
47
100
AcDbScale
 70
     0
300
1-1/2" = 1'-0"
140
1.5
141
12.0
290
     0
  0
SCALE
  5
66
102
{ACAD_REACTORS
330
47
102
}
330
47
100
AcDbScale
 70
     0
300
3" = 1'-0"
140
3.0
141
12.0
290
     0
  0
SCALE
  5
67
102
{ACAD_REACTORS
330
47
102
}
330
47
100
AcDbScale
 70
     0
300
6" = 1'-0"
140
6.0
141
12.0
290
     0
  0
SCALE
  5
68
102
{ACAD_REACTORS
330
47
102
}
330
47
100
AcDbScale
 70
     0
300
1'-0" = 1'-0"
140
12.0
141
12.0
290
     0
  0
ENDSEC
  0
EOF
